Понедельник
20.11.2017
08:47
 Виктор Цой

Творчество Виктора Цоя
 


Приветствую Вас Гость | RSSГлавная | Бездельник | | Регистрация | | Вход
Меню Сайта
ПЛЕЕР
Бездельник. 
- - - - - - - - - - - - - - - - - - -
ВАРИАНТ 1.

/Hm A Hm A/

Hm A D A 
 Гуляю, я один гуляю.
Hm A C# F#m
 Что дальше, делать я не знаю.
Hm A D A
 Нет дома никого нет дома.
Hm A C# F#m C#F#m
 Я лишний словно куча лома у-у
 
 Hm A
 Я бездельник о мама мама.
 C#F#m
 Я бездельник у-у
 Hm A /Hm A Hm A/
 Я бездельник о-о мама мама.

Hm A D A
 В толпе я, как иголка в сене.
Hm A C# F#m
 Я снова человек без цели.
Hm A D A
 Болтаюсь, целый день гуляю,
Hm A C# F#m C#F#m
 Не знаю, я ничего не знаю у-у.

 Hm A
 Я бездельник о мама мама.
 C#F#m
 Я бездельник у-у
 Hm A /Hm A Hm A Hm/
 Я бездельник о-о мама мама.

 ВАРИАНТ 2.

Intro (только для аккордов Hm, для аккордов Am - на 2 лада выше):
 Repeat 3 times
1|-2-2-2--2--2-2--2-2--2-2-2--2-2--0----0--0--0-0----------------------------
2|-3-3-3--3--5-3--5-3--5-3-3--5-3--2----2--3--3-2----------------------------
3|-2-2-2--2--2-2--2-2--2-2-2--2-2--2----2--2--2-2----------------------------
4|-4-4-4--4--4-4--4-4--4-4-4--4-4--2----2--2--2-2----------------------------
5|-2-2-2--2--2-2--2-2--2-2-2--2-2--0----0--0--0-0----------------------------
6|---------------------------------------------------------------------------

1|-2-2-2--2--2-2--2-2--2-2-2--2-2---/5--3--0^3-------------------------------
2|-3-3-3--3--5-3--5-3--5-3-3--5-3---/5--3--0^3--3/5-3------------------------
3|-2-2-2--2--2-2--2-2--2-2-2--2-2---------------2/4-2------------------------
4|-4-4-4--4--4-4--4-4--4-4-4--4-4--------------------------------------------
5|-2-2-2--2--2-2--2-2--2-2-2--2-2--------------------------------------------
6|---------------------------------------------------------------------------

После вступления Цой в акустике играет:
1|---6/8--6--3h6--1-3--1-
(Проще 1|-6-8--6--3--6--1-3--1-) Каспарян на электрогитаре с примочкой (например, в ДК Железнодорожников) играет второй вариант, только вместо последнего 1 лада 1 струны ставил баррэ на весь 1 лад и, проводя по струнам снизу вверх, делал резкий слайд на 7 лад (на Hm).

Видео
Мини-чат
Статистика

Онлайн всего: 1
Гостей: 1
Пользователей: 0
Чего не хватает сайту?
Всего ответов: 171
Copyright MyCorp © 2017