Среда
21.11.2018
19:19
 Виктор Цой

Творчество Виктора Цоя
 


Приветствую Вас Гость | RSSГлавная | Электричка | | Регистрация | | Вход
Меню Сайта
ПЛЕЕР
  Электричка. 
- - - - - - - - - - - - - - - - - - -
ВАРИАНТ 1.

Intro

e||---0--7--5--2-3-2-0------0----0-2-3-0-0---------------------|
b||-----------------------3-1----1--------------0-1----------------|
g||------------------------------------------------------------------|
d||------------------------------------------------------------------|
a||------------------------------------------------------------------|
e||------------------------------------------------------------------|


Bass intro (на основе "Последнего героя"):
3-----------------|---------------------------
4-----------------|---------------------------
5----------0-2-3--|----------0-1-2------------
6-0-0--0-3--------|-0-0--0-3------------------


С басом идут аккорды: Em и C

А после этого идёт такое:

1---3---3--3--4--3--4---
2---4---4--4--5--4--5---
3---3---3--3--4--3--4---
4----------------------- (4 раза)
5-----------------------
6-----------------------

Этот проигрыш идёт в припеве (на основе "Последнего героя")

/Em C/

 Em C Em  С Em C Em C
 Я вчера слишком поздно лёг, сегодня рано встал.
 Em C Em  С Em C Em C
 Я вчера слишком поздно лёг, я почти не спал.
 Em C Em С Em C Em C
 Мне наверно с утра нужно было пойти к врачу,
 Em C Em С Em C Em C
 А теперь электричка везёт меня , туда куда я не хочу.

 Em C Em С  Em C Em C
 Электричка везёт меня туда куда я не хочу.
 Em C  Em С Em C Em C
 Электричка везёт меня туда куда я не хочу.

 Em C Em С Em C Em C
 В тамбуре холодно, и в то же время как-то тепло.
 Em C Em С Em C Em C
 В тамбуре накурено, и в то же время как-то свежо.
 Em C Em С Em C Em С
 Почему я молчу, почему не кричу молчу.
 Em C Em  С Em C Em C
 Электричка везёт меня туда куда я не хочу.

 Em  C Em С Em C Em C
 Электричка везёт меня туда куда я не хочу.
 Em C Em С Em C Em C Em
 Электричка везёт меня туда куда я не хочу.
Видео
Мини-чат
Статистика

Онлайн всего: 1
Гостей: 1
Пользователей: 0
Чего не хватает сайту?
Всего ответов: 171
Copyright MyCorp © 2018