Суббота
21.04.2018
18:19
 Виктор Цой

Творчество Виктора Цоя
 


Приветствую Вас Гость | RSSГлавная | Красно-жёлтые дни | | Регистрация | | Вход
Меню Сайта
ПЛЕЕР
Красно-жёлтые дни. 
- - - - - - - - - - - - - - - - - - -
ВАРИАНТ 1.

Соло оптимизированно под акустическую гитару.)
 
 Hm F# Hm D A D
e|--------|--------|--------|--------|
H|--------|--------|--------|--------|
G|--------|--------|--------|--------|
D|--------|--------|--0-----|--0-----|
A|--2-----|--2-----|-----0--|--------|
E|-----2--|--------|--------|--------|

 G D Em D A D
e|--------|--------|-------------|--------|
H|--------|--------|-------------|--------|
G|--0-----|--------|-----0-----2-|--------|
D|-----4--|--2-----|--4-----4----|--0-----|
A|--------|--------|-------------|--------|
E|--------|--------|-------------|--------|

 Hm F# Hm D A D
e|---|-----------------|-----|---------2---0---|-----|
H|---|-0---0---3---2---|-0---|-3---3-----------|-3---|
G|---|-----------------|---2-|---2---2---2---2-|---7-|
D|-4-|---4---4---4---4-|-----|-----------------|-----|
A|---|-----------------|-----|-----------------|-----|
E|---|-----------------|-----|-----------------|-----|

 G D Em D A D
e|---------7--------|-----|-----------------|-----|
H|-8---8-------10---|-8---|-3---3---2---2---|-3---|
G|---7---7---7----7-|---2-|---2---2---2---2-|-----|
D|------------------|-----|-----------------|-----|
A|------------------|-----|-----------------|-----|
E|------------------|-----|-----------------|-----|

Hm G
 Застоялся мой поезд в депо,
A G A
 Снова я уезжаю, пора!
Hm G
 На пороге ветер заждался меня
A G A
 На пороге Осень - моя сестра.

 Hm F# Hm
 После красно-жёлтых дней,
 D A D
 Начнётся и кончится Зима,
 G D Em
 Горе ты моё от ума,
 D A D
 Не печалься, гляди веселей.
 Hm F# Hm
 И я вернусь домой,
 D A D
 Со щитом, а может быть на щите,
 G D Em
 В серебре, а может быть в нищите,
 D A D
 Но как можно скорей.

Hm G
 Расскажи мне о тех, кто устал,
A G A
 От безжалостных уличных драм.
Hm G
 И о храме из разбитых сердец,
A G A
 И о тех, кто идёт в этот храм.
 
 Hm F# Hm
 После красно-жёлтых дней,
 D A D
 Начнётся и кончится Зима,
 G D Em
 Горе ты моё от ума,
 D A D
 Не печалься, гляди веселей.
 Hm F# Hm
 И я вернусь домой,
 D A D
 Со щитом, а может быть на щите,
 G D Em
 В серебре, а может быть в нищите,
 D A D 
 Но как можно скорей.

 Hm G
e|-------------|-------------|---------|-------|
H|-------------|-------------|---------|-------|
G|-2-2-0-0-----|-------------|---------|-------|
D|-------------|-0-2-4-4-2-0-|---0-----|-------|
A|---------2-4-|-------------|-4---2---|-------|
E|-------------|-------------|-------3-|-------|

 A G A
e|-------------|-------------|---------|-------|
H|-------------|-------------|---------|-------|
G|-2-2-0-0-----|-----0-------|---------|-------|
D|-----------0-|-2-4---4-2-0-|---0-----|-------|
A|---------4---|-------------|-4---2---|-------|
E|-------------|-------------|-------3-|-------|

 Hm G
e|-------------|-------------|---------|-------|
H|-------------|-------------|---------|-------|
G|-2-2-2-2-----|---2-2-2-0---|-------2-|-------|
D|---------4-2-|-----------4-|---0-----|-------|
A|-------------|-4-----------|-4---2---|-------|
E|-------------|-------------|---------|-------|

 A G A Hm
e|-------------|-------------|---------|-------|-----|
H|-------------|-------------|-------0-|-3-2---|-----|
G|-2-2-2-2-----|---2-2-2-0---|---------|-----2-|-----|
D|---------4-2-|-----------4-|---0-----|-------|-4---|
A|-------------|-4-----------|-4---2---|-------|-----|
E|-------------|-------------|---------|-------|-----|

/Hm F# Hm D A D G D Em D A D/

Hm G
 А мне приснилось - миром правит Любовь,
A G A
 А мне приснилось - миром правит Мечта.
Hm G
 И над этим прекрасно горит звезда,
A G A
 Я проснулся и понял - беда.

 Hm F# Hm
 После красно-жёлтых дней,
 D A D
 Начнётся и кончится Зима,
 G D Em
 Горе ты моё от ума,
 D A D
 Не печалься, гляди веселей.
 Hm F# Hm
 И я вернусь домой,
 D A D
 Со щитом, а может быть на щите,
 G D Em
 В серебре, а может быть в нищите,
 D A D /Hm F# Hm D A D G D Em D A D/
 Но как можно скорей

Пеpед встyплением:

D|--------------------3--2-----3-2-3--------|
A|--0-----0-----3-----------5------------3--|
E|-----0-----3-----3------------------3-----|

Встyпление+Соло в кyплете:

|--------------------------------|-----------------0--------------|
|-----------------1-----0--------|-----1-----1-----------3-----1--|
|----2-----2------------------2--|--0-----0-----0-----0-----0-----|
|-2-----2-----2-----2-----2------|--------------------------------|
|--------------------------------|--------------------------------|
|--------------------------------|--------------------------------|

|-----------------5-----3------------8------8~~~~~----------------|
|-----6-----6---------------------8------8~~~~~~~~----------------|
|--5-----5-----5-----5-----5--------------------------------------|
|-----------------------------------------------------------------|

Видео
Мини-чат
Статистика

Онлайн всего: 1
Гостей: 1
Пользователей: 0
Чего не хватает сайту?
Всего ответов: 171
Copyright MyCorp © 2018