Понедельник
20.11.2017
08:46
 Виктор Цой

Творчество Виктора Цоя
 


Приветствую Вас Гость | RSSГлавная | Мама мы все тяж.. | | Регистрация | | Вход
Меню Сайта
ПЛЕЕР
Мама, мы все тяжело больны. 
- - - - - - - - - - - - - - - - - - -
ВАРИАНТ 1.

(Вместо F#m можно попробовать Fm.)

/Hm A G/

 Hm A
 Зерна упали в землю, зерна просят дождя.
 G
 Им нужен дождь.
 Hm
 Разрежь мою грудь, посмотри мне внутрь,
 A G
 Ты увидишь, там все горит огнем.

 Hm
 Через день будет поздно, через час будет поздно,
 A G
 Через миг будет уже не встать.
 Hm
 Если к дверям не подходят ключи, 
 A G
 Вышиби двери плечом.
 F#m
 Мама, мы все тяжело больны…
 G Hm /Hm A G/
 Мама, я знаю, мы все сошли с ума…

 Hm
 Сталь между пальцев, сжатый кулак.
 A G
 Удар выше кисти, терзающий плоть,
 Hm A
 Но вместо крови в жилах застыл яд, 
 G
 Медленный яд.

 Hm
 Разрушенный мир, разбитые лбы
 A G
 Разломанный надвое хлеб.
 Hm
 И вот кто-то плачет, а кто-то молчит,
 A G
 А кто-то так рад, кто-то так рад…

 F#m
 Мама, мы все тяжело больны…
 G Hm /Hm A G/
 Мама, я знаю, мы все сошли с ума.

 Hm
 Ты должен быть сильным, 
 A
 Ты должен уметь сказать
 G
 Руки прочь, прочь от меня!
 Hm A G
 Ты должен быть сильным, иначе зачем тебе быть.

 Hm
 Что будет стоить тысячи слов,
 A G
 Когда важна будет крепость руки.
 Hm
 И вот ты стоишь на берегу -
 A G
 И думаешь "Плыть или не плыть?”

 F#m
 Мама, мы все тяжело больны.
 G F#m
  Мама, я знаю, мы все сошли с умa.
 G Hm /A G Hm/
 Все тяжело больны, мама я знаю мы все сошли с ума.

В проигрыше Цой на концерте играл аккорды с баррэ, и в
припеве G на баррэ.

Вступление и проигрыш между куплетами:
 Hm A G
e|-----------------|-----------------|-----------------|-----------------|
b|-----------------|-----------------|-----------------|-----------------|
g|-----------------|-----------------|-----------------|-----------------|
d|-----------------|-----------------|-----------------|-----------------|
a|-5---------------|-5---------------|-4---------------|-2---------------|
E|---7-7-7-7-7-7-7-|---7-7-7-7-7-7-7-|---5-5-5-5-5-5-5-|---3-3-3-3-3-3-3-|

Второй куплет:
 Hm A G
e|-----------------|-----------------|-----------------|-----------------|
b|-0---2-0-3-0-2-0-|-0---2-0-3-0-2-0-|---------2-------|-----------------|
g|-----------------|-----------------|-2---4-2---2-4-2-|-0---2-0-4-0-2-0-|
d|-----------------|-----------------|-----------------|-----------------|
a|-----------------|-----------------|-----------------|-----------------|
E|-----------------|-----------------|-----------------|-----------------|

Припев:
 F#m G
e|-----------------|-----------------|-----------------|-----------------|
b|-----------------|-----------------|-----------------|-----------------|
g|-----------------|-----------------|-----------------|-----------------|
d|-4-4-4-2---------|-----------------|-----------------|-----------------|
a|---------5-5-5-4-|-2-2-2-----------|-5-5-5---5-5-5---|-5-5-5---5-5-5---|
E|-----------------|-------5-3---2---|-3-3-3---3-3-3---|-3-3-3---3-3-3---|
Видео
Мини-чат
Статистика

Онлайн всего: 1
Гостей: 1
Пользователей: 0
Чего не хватает сайту?
Всего ответов: 171
Copyright MyCorp © 2017